Guitar tabs?

Discussion forum for legends of doom... Pentagram!
User avatar
Posts: 45
Joined: Sat Jun 10, 2006 1:01 pm

Guitar tabs?

Postby vaquerodiablo » Fri Nov 17, 2006 2:36 pm

Any online resource for older pentagram guitar tabs?

I'd love to get the tab to "when the screams come" and many others.

Posts: 24
Joined: Sat Nov 26, 2005 11:09 am
Location: houston

Postby grooverock » Mon Nov 20, 2006 9:40 am

The old ramshead.org site had quite a few pentagram guitar tabs however I think those died with the site. There had been some rumor that the pentafans.com site was going to inherit the ramshead content but that site hasn't been updated in over 6 months. I'd like to get my hands on these as well since my ability to decipher songs by ear is just about nil.

You may have some luck looking at big tab sites. I forget what they are now but if you google guitar tabs you should be able to find something. I'm pretty sure that I've at least seen a Sign of the Wolf tab.

One note, the original lineup of Pentagram tuned down one full step, although some of the recordings (the 70s versions of Be Forewarned and Last Days Here for example) sound like they were recorded a half step below that. The Relentless recording of Sign of the Wolf sounds somewhere between D and C#. Also, I think Victor Griffin plays in drop D down a half step, or at least he did on The Fall from Place of Skulls first album, Nailed.

Posts: 7
Joined: Mon Nov 27, 2006 6:19 am
Location: France

Postby Solid Sound » Mon Nov 27, 2006 6:37 am

Hi!

I'd safeguarded the tabs from ramshead (and learned 5 or 6), I have some problems with my computer, therefore I'll see if they're recoverable and if I can give it here.
In all cases, "Forever my queen" and "Review your choices" for example are 'relatively easy' to find... (by your own ears).
Live free and burn

User avatar
Posts: 45
Joined: Sat Jun 10, 2006 1:01 pm

Postby vaquerodiablo » Mon Nov 27, 2006 9:28 am

Thanks! I found 'Forever My Queen' and I'll see if I can figure out 'Review Your Choices' Thanks for the heads up! Good luck with your computer!

Posts: 24
Joined: Sat Nov 26, 2005 11:09 am
Location: houston

Postby grooverock » Mon Nov 27, 2006 10:42 am

20 buck spin is also not too tough to learn (at least the basic rhythm parts) as I was able to more or less get the idea (on bass) and I'm terrible at figuring things out by ear.

Posts: 7
Joined: Mon Nov 27, 2006 6:19 am
Location: France

Postby Solid Sound » Tue Nov 28, 2006 2:53 pm

I think 'Review your choices' tab is something like that (main notes, simplified of course):

intro etc
G|-----------9\10\9----------
D|-------79------------------
A|---57----------------------
E|-----------------------------
\:glissendo

verse.....................................End of verse ("but there's a man...")
G|------------------------------ /-------------------------------
D|------------------------------ /-------------------------------
A|-7-77------------------------ /--7-77------------------------
E|--------323-3--22-2--555--- /--------323-3--555-777-----


I don't remember the other riff (bridges - "evil churns..." etc) exactly, and I notice that the "RYC'album" version seems to be much different at some points (maybe more simple bass-line and with 46 tons of f*cking heavy guitars!). :wink:

With my band, we'll work soon on a cover of a Pentasong...
RYC why not!? 8)

Cheers!
Live free and burn

User avatar
Posts: 45
Joined: Sat Jun 10, 2006 1:01 pm

Postby vaquerodiablo » Wed Nov 29, 2006 5:28 pm

Thanks!! Can't wait to hear your band!

Posts: 1
Joined: Sat Jun 03, 2006 6:36 am
Location: Italy

Tabs

Postby Daniele » Mon Dec 04, 2006 1:03 pm

Hi to you all.
I did many of the guitar tabs posted in the old glorious ramshead.org website a couple of years ago.
I think I still have them somewhere in my PC, all proudly McAllister-era.
I was beginning to do some tabs off "Day of Reckoning" album but the old site close down, so I abandoned the idea.
I'm waiting for the new Pentagram site (Pentafans.com) become reality, so I can try to send my old tabs to that site for you all.
Cheers!
Dan

Posts: 31
Joined: Sat Nov 26, 2005 1:00 am
Location: Texas

Postby Red » Wed Dec 06, 2006 2:19 pm

I started on a tab for Relentless but didn't ever finish it. If anyone's up to the task, you can finish it (convert text to Courier New font to read)...

Tuning: Drop B

Riff 1:

(x8)
|-----2-2-----2-2--------------------|
|------------------------------------|
|-2p0-----2p0-----2p0--2p0-2p0-2p0---|
|------------------------------------|
|------------------------------------|
|------------------------------------|

|-9---8-|
|-9---8-|
|-9---8-|
|-------|
|-------|
|-------|

|-----2-2-----2-2--------------------|
|------------------------------------|
|-2p0-----2p0-----2p0--2p0-2p0-2p0---|
|------------------------------------|
|------------------------------------|
|------------------------------------|

|-9---8-|
|-9---8-|
|-9---8-|
|-------|
|-------|
|-------|

(x4)
|-----2-2-----2-2--------------------|
|------------------------------------|
|-2p0-----2p0-----2p0--2p0-2p0-2p0---|
|------------------------------------|
|------------------------------------|
|------------------------------------|

Riff 2:

(x2 - Vocals)
B |-2-2-2-2-5-2-2-2-7-2-2-8---2-2-2-2-5-2-2-2---5---7-|
Gb |---------------------------------------------5---7-|
B |---------------------------------------------5---7-|
E |---------------------------------------------------|
Ab |---------------------------------------------------|
Db |---------------------------------------------------|

(x
B |-2-2-2-2-5-2-2-2-7-2-2-8---2-2-2-2-5-2-2-2---5---7-|
Gb |---------------------------------------------5---7-|
B |---------------------------------------------5---7-|
E |---------------------------------------------------|
Ab |---------------------------------------------------|
Db |---------------------------------------------------|
Now I don my electric axe, I'm gonnna lay you on your back

Posts: 1
Joined: Mon Sep 14, 2009 10:29 pm

Postby justforsabbath » Mon Sep 14, 2009 10:33 pm

Well guys I am a doom metal fan from India, Mumbai city just joined this forum and its great to be here. I want to wish each and every member of bedemon and pentagram thanks for the amazing music they have created.

My purpose to write in this thread was that I am looking for the "Be Forewarned" Guitar tab. If any one can just help me out with it would be awesome.

Return to Pentagram

Who is online

Users browsing this forum: No registered users and 2 guests